Sunday, 9 May 2010

Neo-Classic Scale

Well, atas permintaan seorang temen gw di facebook gw akhirnya berjuang dengan buku scale dan microsoft word untuk membuat beberapa scale yang berhubungan erat sama Neo-Classic yahh mungkin gak seberapa tapi akhirnya gw sadar: BIKIN TAB ITU GAK GAMPANG!! Gila! Lumayan ribet juga! hehehe....


Harmonic Minor Scale (Aeolian mode with a raised 7th scale degree)
|----------------------------------1-2-4---5-----|
|-----------------------------2-3----------------|
|---------------------1-2-4----------------------|
|----------------3-4-----------------------------|
|--------2-4-5-----------------------------------|
|-2-4-5------------------------------------------|

Melodic minor scale (Aeolian mode with a raised 6th and 7th scale degree)
|---------------------------1-2-4--4-2-1----------------------------|
|-----------------------2-4--------------2-3------------------------|
|-----------------1-2-4----------------------4-2-1------------------|
|-----------1-2-4----------------------------------4-3--------------|
|-------2-4--------------------------------------------5-4-2--------|
|-2-4-5------------------------------------------------------5-4-2--|





Paganini Style Violin Lick
|----8-7-8-5-8-7-8---10-8-10-7-10-8-10------------|
|-5----------------6------------------------------|
|-------------------------------------------------|
|-------------------------------------------------|
|-------------------------------------------------|
|-------------------------------------------------|

|----12-10-12-8-12-10-12-10-7------7------------------|
|-10---------------------------------9-------9--------|
|--------------------------------------10------10-7---|
|-----------------------------------------------------|
|-----------------------------------------------------|
|-----------------------------------------------------|

|---------------------------------------------12-15-------|
|-9----------------------------------------13-------------|
|---10-7-----10-7-----------------------14----------------|
|----------9-------9-----------------14-------------------|
|--------------------11-12-14-15--------------------------|
|---------------------------------------------------------|


|--------------------------------------------------------------|
|--------------------------------------------------------------|
|--------------------------------------------------------------|
|-13-14--------------------------------------------------------|
|---------15-14-15-14-12-----14----15----14----12--------------|
|------------------------------15----15----15----15----15--15--|



Harmonik Scale

130 bpm

E7

|----13-12-10---------------------------------------------------------|
|-------------13-12-10-9-10-12-10-9-5--|-6-5--------------------------|
|---------------------------------------------7--5-4--------4---------|
|-----------------------------------------------------7-6-7----7--6-2-|
|---------------------------------------------------------------------|
|---------------------------------------------------------------------|


|-----------------------------------------------------------------|
|-----------------------------------------------------------------|
|-----------------------------------------------------------------|
|-----3--2--------------------------------------------------------|
|------------5--3--2------------2---------------------------------|
|----------------------5--4--5-----5--4--1---|---0----------------|


Ok, that's it! capek bikinnya! So, my friend! sedot aja! copy paste halal dah!

Related Articles

0 komentar: